Carry Me Home



E|----------------------|----------------------|----------------------|
B|----------------------|----------------------|----------------------|
G|--7----7----7----7----|----------------------|--7----7----7----7----|
D|--7----7----7----7----|--8----8----7----7----|--7----7----7----7----|
A|--5----5----5----5----|--8----8----7----7----|--5----5----5----5----|
E|----------------------|--6----6----5----5----|----------------------|
|----------------------|----------------------|----------------------|
|----------------------|----------------------|----------------------|
|--7----7----7----7----|----------------------|----------------------|
|--7----7----7----7----|--5----5----5----5----|--3----3----3----3----|
|--5----5----5----5----|--5----5----5----5----|--3----3----3----3----|
|----------------------|--3----3----3----3----|--1----1----1----1----|
|--------------------------------------|--------------------------------------|
|--------------------------------------|--------------------------------------|
|--------------------------------------|--------------------------------------|
|--------------------------------------|--7--7--7--7--7--7--7--7--7--7--7--7--|
|--7--7--7--7--7--7--7--7--7--7--7--7--|--7--7--7--7--7--7--7--7--7--7--7--7--|
|--5--5--5--5--5--5--5--5--5--5--5--5--|--5--5--5--5--5--5--5--5--5--5--5--5--|

My tender...

|----------------------|----------------------|--------------------------|
|----------------------|----------------------|--------------------------|
|--7----7----7----7----|----------------------|--------------------------|
|--7----7----7----7----|--8----8----8----8----|--10----10----10----10----|
|--5----5----5----5----|--8----8----8----8----|--10----10----10----10----|
|----------------------|--6----6----6----6----|--8-----8-----8-----8-----|

dance band...

|----------------------|----------------------|----------------------|
|----------------------|----------------------|----------------------|
|--7----7----7----7----|--7----7----7----7----|----------------------|
|--7----7----7----7----|--7----7----7----7----|--8----8----8----8----|
|--5----5----5----5----|--5----5----5----5----|--8----8----8----8----|
|----------------------|----------------------|--6----6----6----6----|

I don't know...

|--------------------------|----------------------|----------------------|
|--------------------------|----------------------|----------------------|
|--------------------------|--7----7----7----7----|--7----7----7----7----|
|--10----10----10----10----|--7----7----7----7----|--7----7----7----7----|
|--10----10----10----10----|--5----5----5----5----|--5----5----5----5----|
|--8-----8-----8-----8-----|----------------------|----------------------|
|----------------------|--------------------------|----------------------|
|----------------------|--------------------------|----------------------|
|----------------------|--------------------------|--7----7----7----7----|
|--8----8----8----8----|--10----10----10----10----|--7----7----7----7----|
|--8----8----8----8----|--10----10----10----10----|--5----5----5----5----|
|--6----6----6----6----|--8-----8-----8-----8-----|----------------------|

I got my....

|----------------------|----------------------|--------------------------|
|----------------------|----------------------|--------------------------|
|--7----7----7----7----|----------------------|--------------------------|
|--7----7----7----7----|--8----8----8----8----|--10----10----10----10----|
|--5----5----5----5----|--8----8----8----8----|--10----10----10----10----|
|----------------------|--6----6----6----6----|--8-----8-----8-----8-----|

carry me home...

|----------------------|----------------------|----------------------|
|----------------------|----------------------|----------------------|
|--7----7----7----7----|----------------------|----------------------|
|--7----7----7----7----|--5----5----5----5----|--5----5----5----5----|
|--5----5----5----5----|--5----5----5----5----|--5----5----5----5----|
|----------------------|--3----3----3----3----|--3----3----3----3----|

carry me home...                              carry me home...

|----------------------|----------------------|----------------------|
|----------------------|----------------------|----------------------|
|--7----7----7----7----|--7----7----7----7----|----------------------|
|--7----7----7----7----|--7----7----7----7----|--5----5----5----5----|
|--5----5----5----5----|--5----5----5----5----|--5----5----5----5----|
|----------------------|----------------------|--3----3----3----3----|

like a truck...

|----------------------|--------------------------------------|
|----------------------|--------------------------------------|
|----------------------|--------------------------------------|
|--5----5----5----5----|--------------------------------------|
|--5----5----5----5----|--7--7--7--7--7--7--7--7--7--7--7--7--|
|--3----3----3----3----|--5--5--5--5--5--5--5--5--5--5--5--5--|


(to verse)

|--------------------------------------|
|--------------------------------------|
|--------------------------------------|
|--7--7--7--7--7--7--7--7--7--7--7--7--|
|--7--7--7--7--7--7--7--7--7--7--7--7--|
|--5--5--5--5--5--5--5--5--5--5--5--5--|


AC/DC
        C        
 (Guitar chords, ukelele, keyboard, tabs, bass, drums and lyrics)

Este fichero es trabajo propio de su transcriptor y representa su interpretación personal de la canción. El material contenido en esta página es para exclusivo uso privado, por lo que se prohibe su reproducción o retransmisión, así como su uso para fines comerciales.