Can't stand still


Part 1


|--5--5--4--4--2--2--4--4-------------------------------------------|
|0--0--0--0--0--0--0--0---------------------------------------------|
|-------------------------------------------------------------------|
|-------------------------------------------------------------------|
|-------------------------------------------------------------------|
|-------------------------------------------------------------------|


Part 2


|--7--7--7--7-10-10--9--9-------------------------------------------|
|7--7--7--7--7--7--7--7---------------------------------------------|
|-------------------------------------------------------------------|
|-------------------------------------------------------------------|
|-------------------------------------------------------------------|
|-------------------------------------------------------------------|


Part 3


|--9--9-11-11-12-12-11-11--7--7--9--9-10-10--9--9-------------------|
|9--9--9--9--9--9--9--9--7--7--7--7--7--7--7--7---------------------|
|-------------------------------------------------------------------|
|-------------------------------------------------------------------|
|-------------------------------------------------------------------|
|-------------------------------------------------------------------|


Play the parts as

1 1 1 1 2 2 1 1 3 1 over and over for the rest of the song

I'm unsure of the technique to use for this song. 

One way is to play it with the fingers, using either the thumb and first 
finger or the first two fingers to alternate between the strings. I
don't play much fingerstyle and so have a problem getting this way up to
speed. I think this is the correct way to play the song so if its your
favorite it might be worth the effort to practice this method untill
your up to speed.
 
The other way is use a plectrum and slightly mute the strings with the
palm of the right hand. Play the B
        B        
string with upward strokes and the E
        E        
string with downward strokes. I find this method easier but decide for your

AC/DC
        C        
 (Guitar chords, ukelele, keyboard, tabs, bass, drums and lyrics)

Este fichero es trabajo propio de su transcriptor y representa su interpretación personal de la canción. El material contenido en esta página es para exclusivo uso privado, por lo que se prohibe su reproducción o retransmisión, así como su uso para fines comerciales.