Bonny


Explicaçϣo da Tab:
h=hammeron p=pulloff ~=handvibrato
x=failed   s=slide   b/neck~= bend neck means

     ~~~ ~~b/neck~~~              h s~~~~

e|-3------------------|---------------------------------------|---------------|
b|-3------------------|---------------------------------------|---------------|
g|-4------------------|---------------------------------------|---------------|
D|-5------------------|-5---5--5--7--9--9-9--7--5--7--5-------|--------5--5--5|
A|-5------------------|----------------------------------7--5-|-5--7----------|
E|-3------------------|---------------------------------------|---------------|

      s         ~~~~ ~~~~~       ~~                             x

e|-------------------------|---------------------------------------|----------|
b|-------------------------|---------------------------------------|----------|
g|-----------7--9----7-----|-7--9--9--7--------7-------------------|----------|
D|--7--9--9----------------|-------------9--9-----10-9-7-5---------|------5--5|
A|-------------------------|--------------------------------5------|5--7------|
E|-------------------------|---------------------------------------|----------|

          ~~~~      h p

e|-------------------------3-----------|
b|-------------------------3-----------|
g|-----7--9--7-------------4-----------|
D|7s9-----------9--9-7-9---5-----------|
A|-------------------------5-----------|
E|-------------------------3-----------|


AC/DC
        C        
 (Guitar chords, ukelele, keyboard, tabs, bass, drums and lyrics)

Este fichero es trabajo propio de su transcriptor y representa su interpretación personal de la canción. El material contenido en esta página es para exclusivo uso privado, por lo que se prohibe su reproducción o retransmisión, así como su uso para fines comerciales.