Black Ice



Link da musica http://www.4shared.com/file/66306042/ddd83792/15_-_Black_Ice.html?s=1


(00:00-00:30)


E|-------------------------------------------/----------------fazer mesma digitacao 1 tom acima
B|--------------5------5---8--7-5-7-5----5----/---------------
G|--------------5------5---8--7-5-7-5----5----/--------------
D|-----------7------7------------------7---7---/--------------
A|---------------------------------------------/--------------
E|---------------------------------------------/--------------


(00:30-00:50)


D|------5---7-------7---5-------------------------------------
A|--7---3---5-------5---3---7---------------------------------
E|--5-----------------------5---------------------------------


(00:50-01:30)


E|-------------------------------------------------------------
B|-------------------------------------------------------------
G|-------------------------------------------------------------
D|-------------------------------------------------------------
A|-----3--------6-5-3-5-3-----------3--------6-5-3-5-3---------
E|--5----5-5-----------------5-3-5-----5-5--------------5-3-5--


E|----------------------------------------------------------
B|----------------------------------------------------------
G|----------------------------------------------------------
D|----------------------------------------------------------
A|-----5---------8-7-5-7-5----------5------8-7-5-7-5---------
E|--7----7-7-----------------7-5-7-----7-7-------------7-5-7--


E|----------------------------------------------------------
B|----------------------------------------------------------
G|----------------------------------------------------------
D|----------------------------------------------------------
A|-----3---------6-5-3-5-3----------3------6-5-3-5-3---------
E|--5----5-5-----------------5-3-5-----5-5-------------5-3-5--


(01:30-01:50)


D|-----5--7---7--5------------------------------------
A|--7--3--5---5--3--7---------------------------------
E|--5---------------5---------------------------------


(01:50-02:20)


E|----------------------------------------------------------
B|----------------------------------------------------------
G|----------------------------------------------------------
D|----------------------------------------------------------
A|-----3--------6-5-3-5-3----------3----------6-5-3-5-3-------
E|--5----5-5-----------------5-3-5-----5-5---------------5-3-5--


E|----------------------------------------------------------
B|----------------------------------------------------------
G|----------------------------------------------------------
D|----------------------------------------------------------
A|-----5--------8-7-5-7-5-------->5----------8-7-5-7-5---------
E|--7----7-7-----------------7-5-7-----7-7--------------7-5-7--


E|----------------------------------------------------------
B|----------------------------------------------------------
G|----------------------------------------------------------
D|----------------------------------------------------------
A|-----3--------6-5-3-5-3-----------3------6-5-3-5-3---------
E|--5----5-5-----------------5-3-5-----5-5-------------5-3-5--


(02:21-02:42)


D|-----5--7---7--5------------------------------------
A|--7--3--5---5--3--7---------------------------------
E|--5---------------5---------------------------------


(02:42-03:24)


E|----------------------------------------------------------
B|----------------------------------------------------------
G|----------------------------------------------------------
D|----------------------------------------------------------
A|-----3--------6-5-3-5-3-----------3------6-5-3-5-3---------
E|--5----5-5-----------------5-3-5-----5-5-------------5-3-5--


A|-----------3---6-5-3-5-3---------3------6-5-3-5-3---------
E|-------5------------------5-3-5-----5--------------5-3-5--


AC/DC
        C        
 (Guitar chords, ukelele, keyboard, tabs, bass, drums and lyrics)

Este fichero es trabajo propio de su transcriptor y representa su interpretación personal de la canción. El material contenido en esta página es para exclusivo uso privado, por lo que se prohibe su reproducción o retransmisión, así como su uso para fines comerciales.