Viviré (TAB) (3)


Guitar Solo

E||-------------------------------------------|
B||-------------------------------------------|
G||------9-11-9----------------13-14-16-14-13-|
D||----7----------7-11-9-7--------------------|
A||--9----------9----------11-----------------|
E||-------------------------------------------|



-------------------------------------12----
----------------------------10-14-14-
  --14-13-----------9-11-9-11--------
   --------14-16---7---------------------
--------------9-------------------------
-----------------------------------------
                                             esta parte es rapida
17-14-17-14--------------------------------------------
----12-------------17-14-17-14------------------------
----------------------------------------16-14----16-1---
--------------------------------------------------------16
--------------9--------------------------------------------
------------------------------------------------------------

--------------||
--------------||
--------------||
--------------||
--12----------||
-----14-12-10-||

 Ab
       Ab       
el Zavala

Este fichero es trabajo propio de su transcriptor y representa su interpretación personal de la canción. El material contenido en esta página es para exclusivo uso privado, por lo que se prohibe su reproducción o retransmisión, así como su uso para fines comerciales.