El es el único Dios (TAB) (3)


Ok, vi que todavia hay muchas partes en este canto que se ha
escrito,
Aqui les mando el canto completo con todos los riffs.
Que D
        D        
ios los bendiga. Intro:  E
        E        
|-------------------------|-------------------------  B
        B        
|-------------------------|-------------------------  G
        G        
|-----------7-6-----------|-----------7-6---4-----6-  D
        D        
|---------5-----5---5-----|---------5-----5---5-----  A
        A        
|-----2-5---------2---5-4-|-----2-5-------------5---  E
        E        
|-3-5---------------------|-3-5---------------------  E
        E        
|-------------------------|-------------------------  B
        B        
|-------------------------|-------------------------  G
        G        
|-----------7-6-----------|-------------------------  D
        D        
|---------5-----5---5-----|---------5---------------  A
        A        
|-----2-5---------2---5-4-|-----2-5---5-3-----------  E
        E        
|-3-5---------------------|-3-5--------------------- Coro #1:  G
        G        
 F
        F        
Venid y adoremos postrados exaltemos C
        C        
  Cm9
       Cm9       
  Al Rey de la creación G
        G        
   A
        A        
*?(Riff de A
        A        
/La)?* Aquel que es perfecto es Santo y es E
        E        
terno C
        C        
   Cm
       Cm       
El es el Unico D
        D        
ios, E
        E        
l es Señor Riff intermedio: *Notas por si quiere tocar el piano y la guitarra acoustica* G-A-G-A A
        A        
-B-A-B
        B        
  G-A-G-A A
        A        
-B-A-D
        D        
   E
        E        
|-------------------------|-------------------------  B
        B        
|-8-10-10-8-10---10-------|--10-12-12-10-12---------  G
        G        
|-------------------------|------------------------- ---------------------------------------------------------  E
        E        
|-------------------------|-------------------------  B
        B        
|-8-10-10-8-10---10-------|--10-12-12-10-10/15------  G
        G        
|-------------------------|------------------------- Guitarra A
        A        
coustica:  D
        D        
and E
        E        
in the chorus is like below  D
        D        
/Re y E
        E        
/Mi en el coro se tocan asi:  D
        D        
/Re  E
        E        
/Mi  E
        E        
|---10------12-  B
        B        
|---10------12-  G
        G        
|---7-------9--  D
        D        
|---7-------9--  A
        A        
|--------------  E
        E        
|-------------- Coro #2: G
        G        
uitarra A
        A        
coustica y B
        B        
ajo tocan la mayoria  G
        G        
Hermosura y bondad  D
        D        
Es la esencia de tu hogar  D
        D        
(E)*añadir el effecto de E
        E        
cada cuando se requiere Y tus juicios son verdad  G
        G        
Pleno en integridad  D
        D        
(E)*añadir el effecto de E
        E        
cada cuando se requiere El adorno de tu hogar  D
        D        
 E
        E        
/ Segunda Vez G
        G        
para regresar a el C
        C        
oro #1 Es perfecta santidad Solo: Primero como de el Intro y luego  E
        E        
|-------------------------|---------------------------------  B
        B        
|-------------------------|---------------------------------  G
        G        
|-----------7-6-----------|-----------7-5-------------------  D
        D        
|---------5-----5---5-----|---------5-----7--6-5-5-7--------  A
        A        
|-----2-5---------2---5-4-|-----2-5------------------7-6-5-3  E
        E        
|-3-5---------------------|-3-5----------------------------- *?(Riff de A
        A        
/La)?*Este se toca en esa parte la segunda vez de el C
        C        
oro #1  E
        E        
|-------------------------|-------------------------  B
        B        
|-------------------------|-------------------------  G
        G        
|-----6-------------------|-------------------------  D
        D        
|-------7-----------------|-------------------------  A
        A        
|---------7-5-------------|-------------------------  E
        E        
|-------------------------|------------------------- Este A
        A        
lbum esta buenisimo, Por favor tratenlo y si necesitan mas ayuda mandenme un correo. nando1485 Que D
        D        
ios les bendiga! !!!!Naty te Am
       Am       
o!

 Ab
       Ab       
el Zavala

Este fichero es trabajo propio de su transcriptor y representa su interpretación personal de la canción. El material contenido en esta página es para exclusivo uso privado, por lo que se prohibe su reproducción o retransmisión, así como su uso para fines comerciales.