Zamba para olvidar (TAB)


Gente subo esta tablatura para que me ayuden a completarla,
 hasta acá llegaron mis oidos. Quien pueda sumarle algo que
le falte se lo agradeceria



E-----------------------------------------------------
B-----------------------------------------------------
G--------10----10-8-7-8-6-5-6-3-5-6-7-8-8]10-10----10-
D---8]10----10-10-8-7-8-6-5-6-3-5-6-7-8-8]10----10----

---------------------------------
---------------------------------
-8-6---6-6-8]6-5-6---------------
-8-7-7---------------------------


E---------------------------------------------------
B---------------------------------------------------
G--------10----10-8-7-8-6-5-6-3-5-6-7-8-8]10-10-----
D---8]10----10-10-8-7-8-6-5-6-3-5-6-7-8-8]10----10--

------------------------------------
------------------------------------
-10]12-12----12]14-14----------14]12
-10]12----12-12]14----14-11]12------

                                                   -I-
     Dm
       Dm       
   C
        C        
Dm
       Dm       
  No se para que volviste Dm
       Dm       
   C
        C        
Dm
       Dm       
   E
        E        
-----1]0--------
si yo empezaba a olvidar ]]]]] B
        B        
-3-3-----3]1]3--
Bb
       Bb       
  Am
       Am       
   G
        G        
----------------
No se si ya lo sabras Gm
       Gm       
  Am
       Am       
  llore cuando vos te fuiste Bb
       Bb       
  Am
       Am       
  No se para que volviste, Dm
       Dm       
   C
        C        
Dm
       Dm       
  que mal me hace recordar -II- Dm
       Dm       
   C
        C        
Dm
       Dm       
  La tarde se apuesto triste Dm
       Dm       
   C
        C        
Dm
       Dm       
  y yo prefiero callar Bb
       Bb       
  Am
       Am       
  Para que vamos a hablar Gm
       Gm       
  Am
       Am       
  de cosas que ya no existen Bb
       Bb       
  Am
       Am       
  No se para que volviste Dm
       Dm       
   C
        C        
Dm
       Dm       
  ya ves que es mejor no hablar Estribillo A7
       A7       
  Gm
       Gm       
  Que pena me da saber que al final Bb
       Bb       
   A
        A        
De ese amor ya no queda nada Bb
       Bb       
  Am
       Am       
  Solo una pobre cancion Bb
       Bb       
   A
        A        
da vueltas por mi guitarra Dm
       Dm       
  Gm
       Gm       
 Dm
       Dm       
  Gm
       Gm       
 Dm
       Dm       
  Y hace rato que te extraña A7
       A7       
  Dm
       Dm       
  mi zamba para olvidar (repite acordes de-I- en -III- y -IV-) -III- Mi zamba vivio conmigo, parte de mi soledad No se si ya lo sabras mi vida se fue contigo Contigo mi amor contigo Que mal me hace recordar -IV- Mis manos ya son de barro, tanto apretar al dolor Y ahora que me falta el sol, no se que venis buscando Llorando mi amor llorando Tambien olvidame vos (Estribillo)

 Ab
       Ab       
el Pintos

Este fichero es trabajo propio de su transcriptor y representa su interpretación personal de la canción. El material contenido en esta página es para exclusivo uso privado, por lo que se prohibe su reproducción o retransmisión, así como su uso para fines comerciales.



Buscar canción en YouTube Buscar cover en YouTube


Más canciones